sg
I Saw Her Standing There


Index     Home     Vorige    


I Saw Her Standing There

Composer(s) : Lennon-McCartney
Year : 1962

Alan W. Pollack 's "Notes On" I Saw Her Standing There

Selecteer gewenste toonaard :


Oorspronkelijke toonaard:  E 
Getoonde toonaard:   


7                     7       7    
Well she was just seventeen,  and you know what I mean

                                      7
And the way she looked was way beyond compare

            7        7       7
So how could I dance with another - ooooh

       7    7     7
When I saw her standing there

7                     7       7    
Well she looked at me, and I, I could see

                                         7
That before too long I'd fall in love with her

            7        7       7
She wouldn't dance with another - ooooh

       7    7     7
When I saw her standing there

       7    
Well my heart went boom when I crossed that room

	              7   7    
And I held her hand in mine


Well we danced through the night and we held each other tight

And before too long I fell in love with her

Now I'll never dance with another - ooooh

Since I saw her standing there

Since I saw her standing there

Yeah, since I saw her standing there


Tab: (in E)
E|------- ------- ------- -------|------- ------- ------- -------|
B|-------------------------------|-------------------------------|
G|-------------------------------|-------------------------------|
D|-------------------------------|-------------------------------|
A|-------------------------------|----------------------------2--|
E|-------------------------------|----------------------------0--|
                                  One     two     three   four



e|------- ------- ------- -------|------- ------- ------- -------|
B|-------------------------------|-------------------------------|
G|-------------------------------|-------------------------------|
D|-------------------------------|-------------------------------|
A|2---2---2-------2---2-------2--|2---2---2-------2---2-------2--|
E|0---0---0-------0---0-------0--|0---0---0-------0---0-------0--|

e|------- 4------ 4---4-- -------|4------ 4------ ------- -------|
B|--------3-------3---3----------|3-------3----------------------|
G|-------------------------------|-------------------------------|
D|-------------------------------|-------------------------------|
A|-------------------------------|-------------------------------|
E|-------------------------------|-------------------------------|




e|------- ------- ------- -------|------- ------- ------- -------|
B|-------------------------------|-------------------------------|
G|-------------------------------|-------------------------------|
D|-------------------------------|-------------------------------|
A|2---2---2-------2---2-------2--|2---2---2---2-------2---2------|
E|0---0---0-------0---0-------0--|0---0---0---0-------0---0------|
                                              Well, she was   just
e|------- 4------ 4---4-- -------|4------ 4------ ------- -------|
B|--------3-------3---3----------|3-------3----------------------|
G|-------------------------------|-------------------------------|
D|-------------------------------|-------------------------------|
A|-------------------------------|-------------------------------|
E|-------------------------------|-------------------------------|
                                              


          E7
e|------- ------- ------- -------|------- ------- ------- -------|
B|--------3-------3---3----------|--------3---3-------3---3------|
G|--------1-------1---1----------|--------1---1-------1---1------|
D|--------2-------2---2----------|--------2---2-------2---2------|
A|--------2-------2---2----------|--------2---2-------2---2------|
E|--------0-------0---0----------|--------0---0-------0---0------|
                  seventeen,                              you know 
e|------- ------- ------- -------|------- ------- ------- -------|
B|-------------------------------|-------------------------------|
G|-------------------------------|-------------------------------|
D|-------------------------------|-------------------------------|
A|2---2---2-------2---2-------2--|2---2---2---2-------2-------2--|
E|0---0---0-------0---0-------0--|0---0---0---0-------0-------0--|



          A7                              E7
e|------- 3------ 3---3-- -------|------- 0------ 0---0-- -------|
B|--------2-------2---2----------|--------3-------3---3----------|
G|--------2-------2---2----------|--------1-------1---1----------|
D|--------2-------2---2----------|--------2-------2---2----------|
A|--------0-------0---0----------|--------2-------2---2----------|
E|-------------------------------|--------0-------0---0----------|
                  what I      mean                        and the
e|------- ------- ------- -------|------- ------- ------- -------|
B|-------------------------------|-------------------------------|
G|-------------------------------|-------------------------------|
D|-------------------------------|-------------------------------|
A|2---2---2-------2---2-------2--|2---2---2-------2---2-------2--|
E|0---0---0-------0---0-------0--|0---0---0-------0---0-------0--|




e|------- ------- ------- -------|------- ------- ------- -------|
B|--------3-------3---3----------|--------3-------3---3----------|
G|--------1-------1---1----------|--------1-------1---1----------|
D|--------2-------2---2----------|--------2-------2---2----------|
A|--------2-------2---2----------|--------2-------2---2----------|
E|--------0-------0---0----------|--------0-------0---0----------|
  way she looked              was way         beyond      compare
e|------- ------- ------- -------|------- ------- ------- -------|
B|-------------------------------|-------------------------------|
G|-------------------------------|-------------------------------|
D|-------------------------------|-------------------------------|
A|2---2---2-------2---2-------2--|2---2---2-------2---2-------2--|
E|0---0---0-------0---0-------0--|0---0---0-------0---0-------0--|



          B                               B7
e|------- 7------ 7---7-- -------|------- 7------ 7------ -------|
B|--------7-------7---7----------|-------10------10--------------|
G|--------8-------8---8----------|--------8-------8--------------|
D|--------9-------9---9----------|--------7-------7--------------|
A|--------9-------9---9----------|--------9-------9--------------|
E|--------7-------7---7----------|--------7-------7--------------|
                                                          So
e|------- ------- ------- -------|------- ------- ------- -------|
B|-------------------------------|-------------------------------|
G|-------------------------------|-------------------------------|
D|-------------------------------|-------------------------------|
A|9-------9-------9---9-------9--|--------9-------9--------------|
E|7-------7-------7---7-------7--|--------7-------7--------------|

e|------- ------- ------- -------|------- ------- ------- -------|
B|-------------------------------|-------------------------------|
G|-------------------------------|-------------------------------|
D|-------------------------------|--------7----------------------|
A|------------------------5---7-/|9---------------7---5----------|
E|--------7-------7--------------|-------------------------------|




          E                               E7
e|------- 0------ 0---0-- -------|------- 0---0-- ------- -------|
B|--------0-------0---0----------|--------3---3------------------|
G|--------1-------1---1----------|--------1---1------------------|
D|--------2-------2---2----------|--------2---2------------------|
A|--------2-------2---2----------|--------2---2------------------|
E|--------0-------0---0----------|--------0---0------------------|
  How             could I     dance               with an.....other



          A                               C
e|------- 0------ 0---0-- -------|------- 3------ 3---3-- -------|
B|--------2-------2---2----------|--------5-------5---5----------|
G|--------2-------2---2----------|--------5-------5---5----------|
D|--------2-------2---2----------|--------5-------5---5----------|
A|--------0-------0---0----------|--------3-------3---3----------|
E|-------------------------------|-------------------------------|
                                                      And I


          E7                              B7
e|------- 0------ 0---0-- -------|------- 7------ 7---7-- -------|
B|--------3-------3---3----------|-------10------10--10----------|
G|--------1-------1---1----------|--------8-------8---8----------|
D|--------2-------2---2----------|--------7-------7---7----------|
A|--------2-------2---2----------|--------9-------9---9----------|
E|--------0-------0---0----------|--------7-------7---7----------|
  saw              her            stan................din'    there



          E7
e|------- 0------ 0---0-- -------|0------ 0------ 0---0-- -------|
B|--------3-------3---3----------|3-------3-------3---3----------|
G|--------1-------1---1----------|1-------1-------1---1----------|
D|--------2-------2---2----------|2-------2-------2---2----------|
A|--------2-------2---2----------|2-------2-------2---2----------|
E|--------0-------0---0----------|0-------0-------0---0----------|
                                                          Well, she
e|------- 4------ 4---4-- -------|4------ 4------ ------- -------|
B|--------3-------3---3----------|3-------3----------------------|
G|-------------------------------|-------------------------------|
D|-------------------------------|-------------------------------|
A|-------------------------------|-------------------------------|
E|-------------------------------|-------------------------------|  




e|------- 0------ 0---0-- -------|------- 0------ 0---0-- -------|
B|--------3-------3---3----------|--------3-------3---3----------|
G|--------1-------1---1----------|--------1-------1---1----------|
D|--------2-------2---2----------|--------2-------2---2----------|
A|--------2-------2---2----------|--------2-------2---2----------|
E|--------0-------0---0----------|--------0-------0---0----------|
                  looked at   me                          And I,           
e|------- ------- ------- -------|------- ------- ------- -------|
B|-------------------------------|-------------------------------|
G|-------------------------------|-------------------------------|
D|-------------------------------|-------------------------------|
A|2---2---2-------2---2-------2--|2---2---2---2-------2-------2--|
E|0---0---0-------0---0-------0--|0---0---0---0-------0-------0--|



          A7                              E7
e|------- 3------ 3---3-- -------|------- 0------ 0---0-- ----0--|
B|--------2-------2---2----------|--------3-------3---3-------3--|
G|--------2-------2---2----------|--------1-------1---1-------1--|
D|--------2-------2---2----------|--------2-------2---2-------2--|
A|--------0-------0---0----------|--------2-------2---2-------2--|
E|-------------------------------|--------0-------0---0-------0--|
                  I   could   see                         that be..  
e|------- ------- ------- -------|------- ------- ------- -------|
B|-------------------------------|-------------------------------|
G|-------------------------------|-------------------------------|
D|-------------------------------|-------------------------------|
A|2---2---2-------2---2-------2--|2---2---2-------2---2-------2--|
E|0---0---0-------0---0-------0--|0---0---0-------0---0-------0--|




e|------- 0------ 0---0-- -------|------- ----0-- ----0-- 0------|
B|--------3-------3---3----------|------------3-------3---3------|
G|--------1-------1---1----------|------------1-------1---1------|
D|--------2-------2---2----------|------------2-------2---2------|
A|--------2-------2---2----------|------------2-------2---2------|
E|--------0-------0---0----------|------------0-------0---0------|
  fore    too long            I'd     fall in love        with her
e|------- ------- ------- -------|------- ------- ------- -------|
B|-------------------------------|-------------------------------|
G|-------------------------------|-------------------------------|
D|-------------------------------|-------------------------------|
A|2---2---2-------2---2-------2--|2---2---2-------2---2-------2--|
E|0---0---0-------0---0-------0--|0---0---0-------0---0-------0--|



          B7
e|------- 7------ 7---7-- -------|------- 7------ 7------ -------|
B|--------7-------7---7----------|--------7-------7--------------|
G|--------8-------8---8----------|--------8-------8--------------|
D|--------9-------9---9----------|--------9-------9--------------|
A|--------9-------9---9----------|--------9-------9--------------|
E|--------7-------7---7----------|--------7-------7--------------|
                                                          
e|------- ------- ------- -------|------- ------- ------- -------|
B|-------------------------------|-------------------------------|
G|-------------------------------|-------------------------------|
D|-------------------------------|-------------------------------|
A|9-------9-------9---9-------9--|--------9-------9--------------|
E|7-------7-------7---7-------7--|--------7-------7--------------|

e|------- ------- ------- -------|2------ ------- ------- -------|
B|-------------------------------|0------------------------------|
G|-------------------------------|4------------------------------|
D|-------------------------------|-------------------------------|
A|-------------------------------|-------------------------------|
E|-------------------------------|-------------------------------|



          E                               E7
e|------- 0------ 0---0-- -------|------- 0------ 0---0-- -------|
B|--------0-------0---0----------|--------3-------3---3----------|
G|--------1-------1---1----------|--------1-------1---1----------|
D|--------2-------2---2----------|--------2-------2---2----------|
A|--------2-------2---2----------|--------2-------2---2----------|
E|--------0-------0---0----------|--------0-------0---0----------|
  She             wouldn't    dance               with an.....other


          A                       C
e|------- 0------ 0---0-- -------|3------ ----3-- ------- 3------|
B|--------2-------2---2----------|5-----------5-----------5------|
G|--------2-------2---2----------|5-----------5-----------5------|
D|--------2-------2---2----------|5-----------5-----------5------|
A|--------0-------0---0----------|3-----------3-----------3------|
E|-------------------------------|-------------------------------|
                              Whooh                       And I


          E                       B
e|------- 0------ 0---0-- -------|7------ 7------ 7------ 7------|
B|--------0-------0---0----------|7-------7-------7-------7------|
G|--------1-------1---1----------|8-------8-------8-------8------|
D|--------2-------2---2----------|9-------9-------9-------9------|
A|--------2-------2---2----------|9-------9-------9-------9------|
E|--------0-------0---0----------|7-------7-------7-------7------|
  saw              her            stan................ding    there



          E7
e|------- 0------ 0---0-- -------|0------ 0---0-- ------- -------|
B|--------3-------3---3----------|3-------3---3------------------|
G|--------1-------1---1----------|1-------1---1------------------|
D|--------2-------2---2----------|2-------2---2------------------|
A|--------2-------2---2----------|2-------2---2------------------|
E|--------0-------0---0----------|0-------0---0------------------|
                                                  Well,   my
e|------- 4------ 4---4-- -------|4------ 4---4-- ------- -------|
B|--------3-------3---3----------|3-------3---3------------------|
G|-------------------------------|-------------------------------|
D|-------------------------------|-------------------------------|
A|-------------------------------|-------------------------------|
E|-------------------------------|-------------------------------|



  A
e|------- ------- ------- -------|------- ------- ------- -------|
B|-------------------------------|-------------------------------|
G|-------------------------------|-------------------------------|
D|2---2---2---2---2---2---2---2--|2---2---4---2---2---2---2---2--|
A|0---0---0---0---0---0---0---0--|0---0---0---0---0---0---0---0--|
E|-------------------------------|-------------------------------|
  heart           went       "boom"               When    I
e|------- ------- ------- -------|------- ------- ------- -------|
B|-------------------------------|-------------------------------|
G|-------------------------------|-------------------------------|
D|----------------2---2----------|----------------2--------------|
A|0---0---3---4-----------3---4--|0---0---4---0-------0---3---4--|
E|-------------------------------|-------------------------------|




e|------- ------- ------- -------|------- ------- ------- -------|
B|-------------------------------|-------------------------------|
G|-------------------------------|-------------------------------|
D|2---2---2---2---2---2---2---2--|2---2---4---2---2---2---2---2--|
A|0---0---0---0---0---0---0---0--|0---0---0---0---0---0---0---0--|
E|-------------------------------|-------------------------------|
  crossed         that        room                And     I
e|------- ------- ------- -------|------- ------- ------- -------|
B|-------------------------------|-------------------------------|
G|-------------------------------|-------------------------------|
D|----------------2---2----------|----------------2--------------|
A|0---0---3---4-----------3---4--|0---0---4---0-------0---3---4--|
E|-------------------------------|-------------------------------|



  B
e|------- ------- ------- -------|------- ------- ------- -------|
B|-------------------------------|-------------------------------|
G|-------------------------------|-------------------------------|
D|2---2---2---2---2---2---2---2--|2---2---4---2---2---2---2---2--|
A|0---0---0---0---0---0---0---0--|0---0---0---0---0---0---0---0--|
E|-------------------------------|-------------------------------|
  held            her         hand                in 
e|------- ------- ------- -------|------- ------- ------- -------|
B|-------------------------------|-------------------------------|
G|-------------------------------|-------------------------------|
D|-------------------------------|-------------------------------|
A|3---4-------3---4-------3---4--|----3---4--------3---4---------|
E|-------------------------------|-------------------------------|




e|------- ------- ------- -------|------- ------- ------- -------|
B|-------------------------------|-------------------------------|
G|-------------------------------|-------------------------------|
D|4---4---4---4---4---4---4---4--|4---4---4---4---4---4---4---4--|
A|2---2---2---2---2---2---2---2--|2---2---2---2---2---2---2---2--|
E|-------------------------------|-------------------------------|
  mine
e|------- ------- ------- -------|------- ------- ------- -------|
B|-------------------------------|-------------------------------|
G|-------------------------------|-------------------------------|
D|-------------------------------|----7--------------------------|
A|----------------5---7---------7H9-------------97---5----------|
E|--------7----------------------|-------------------------------|



  A
e|------- ------- ------- -------|------- ------- ------- -------|
B|-------------------------------|-------------------------------|
G|-------------------------------|-------------------------------|
D|2---2---4---2---2---2---4---2--|2---2---4---2---2---2---4---2--|
A|0---0---0---0---0---0---0---0--|0---0---0---0---0---0---0---0--|
E|-------------------------------|-------------------------------|
                                              Whoah   we      danced
e|------- ------- ------- -------|------- ------- ------- -------|
B|--------7-------5--------------|-------------------------------|
G|--------7-------6--------------|-------------------------------|
D|--------------------7----------|-------------------------------|
A|-------------------------------|-------------------------------|
E|-------------------------------|-------------------------------|    



          E7
e|------- 0------ 0---0-- -------|----0-- ------- 0---0-- -------|
B|--------3-------3---3----------|3---------------3---3----------|
G|--------1-------1---1----------|1---------------1---1----------|
D|--------2-------2---2----------|2---------------2---2----------|
A|--------2-------2---2----------|2---------------2---2----------|
E|--------0-------0---0----------|0---------------0---0----------|
                  through the night                       And we              
e|------- ------- ------- -------|------- ------- ------- -------|
B|-------------------------------|-------------------------------|
G|-------------------------------|-------------------------------|
D|-------------------------------|-------------------------------|
A|2---2---2-------2---2-------2--|2---2---2---2-------2-------2--|
E|0---0---0-------0---0-------0--|0---0---0---0-------0-------0--|



          A7                              E7
e|------- 3------ 3---3-- -------|------- 0------ 0---0-- -------|
B|--------2-------2---2----------|--------3-------3---3----------|
G|--------2-------2---2----------|--------1-------1---1----------|
D|--------2-------2---2----------|--------2-------2---2----------|
A|--------0-------0---0----------|--------2-------2---2----------|
E|-------------------------------|--------0-------0---0----------|
  held    each    other       tight                       And be..           
e|------- ------- ------- -------|------- ------- ------- -------|
B|-------------------------------|-------------------------------|
G|-------------------------------|-------------------------------|
D|-------------------------------|-------------------------------|
A|2---2---2-------2---2-------2--|2---2---2-------2---2-------2--|
E|0---0---0-------0---0-------0--|0---0---0-------0---0-------0--|



          E7  
e|------- 0------ 0---0-- -------|------- ----0-- ----0-- 0------|
B|--------3-------3---3----------|------------3-------3---3------|
G|--------1-------1---1----------|------------1-------1---1------|
D|--------2-------2---2----------|------------2-------2---2------|
A|--------2-------2---2----------|------------2-------2---2------|
E|--------0-------0---0----------|------------0-------0---0------|
  fore    too long            I       fell in love        with her
e|------- ------- ------- -------|------- ------- ------- -------|
B|-------------------------------|-------------------------------|
G|-------------------------------|-------------------------------|
D|-------------------------------|-------------------------------|
A|2---2---2-------2---2-------2--|2---2---2-------2---2-------2--|
E|0---0---0-------0---0-------0--|0---0---0-------0---0-------0--|



          B
e|------- 7------ 7---7-- ----7--|----7-- 7------ 7---7-- -------|
B|--------7-------7---7-------7--|----7---7-------7---7----------|
G|--------8-------8---8-------8--|----8---8-------8---8----------|
D|--------9-------9---9-------9--|----9---9-------9---9----------|
A|--------9-------9---9-------9--|----9---9-------9---9----------|
E|--------7-------7---7-------7--|----7---7-------7---7----------|
                                                          Now    
e|------- ------- ------- -------|------- ------- ------- -------|
B|-------------------------------|-------------------------------|
G|-------------------------------|-------------------------------|
D|-------------------------------|-------------------------------|
A|9-------9-------9---9-------9--|--------9-------9--------------|
E|7-------7-------7---7-------7--|--------7-------7--------------|

e|------- 7------ ------- -------|----5-- ------- 5------ -------|
B|--------7----------------------|----7-----------7--------------|
G|-------------------------------|-------------------------------|
D|-------------------------------|-------------------------------|
A|-------------------------------|-------------------------------|
E|-------------------------------|-------------------------------|




          E                               E7
e|------- 0------ 0---0-- -------|------- 0------ 0---0-- -------|
B|--------0-------0---0----------|--------3-------3---3----------|
G|--------1-------1---1----------|--------1-------1---1----------|
D|--------2-------2---2----------|--------2-------2---2----------|
A|--------2-------2---2----------|--------2-------2---2----------|
E|--------0-------0---0----------|--------0-------0---0----------|
  I'll            never       dance               with an.....other



          A7                      C
e|------- 3------ 3---3-- -------|3------ 3------ 3------ 3------|
B|--------2-------2---2----------|5-------5-------5-------5------|
G|--------2-------2---2----------|5-------5-------5-------5------|
D|--------2-------2---2----------|5-------5-------5-------5------|
A|--------0-------0---0----------|3-------3-------3-------3------|
E|-------------------------------|-------------------------------|
                              Whooh                   And I


          E                       B
e|------- 0------ 0---0-- -------|7------ 7------ 7---7-- -------|
B|--------0-------0---0----------|7-------7-------7---7----------|
G|--------1-------1---1----------|8-------8-------8---8----------|
D|--------2-------2---2----------|9-------9-------9---9----------|
A|--------2-------2---2----------|9-------9-------9---9----------|
E|--------0-------0---0----------|7-------7-------7---7----------|
  saw              her            stan................din'    there



          E7
e|------- 0------ 0---0-- -------|0------ 0------ ------- -------|
B|--------3-------3---3----------|3-------3----------------------|
G|--------1-------1---1----------|1-------1----------------------|
D|--------2-------2---2----------|2-------2----------------------|
A|--------2-------2---2----------|2-------2----------------------|
E|--------0-------0---0----------|0-------0----------------------|
  
e|------- 4------ 4---4-- -------|4------ 4------ ------- -------|
B|--------3-------3---3----------|3-------3----------------------|
G|-------------------------------|-------------------------------|
D|-------------------------------|-------------------------------|
A|-------------------------------|-------------------------------|
E|-------------------------------|-------------------------------|



Solo

  E7							  E7
e|------- ------- ------- -------|------- ------- ------- -------|
B|-------------------------------|-------------------------------|
G|-------------------------------|-------------------------------|
D|----8-------7------------------|----------------5---7---------7/
A|--------------------7-------7-5H7-------7----------------------|
E|-------------------------------|-------------------------------|

  E7							  E7
e|------- ------- ------- -------|------- ------- ------- -------|
B|-------------------------------|-------------------------------|
G|----7--------------------------|-------------------------------|
D|9-------------97---5----------|--------------------5----------|
A|----------------------------7--|--------------5H7-------------7/
E|-------------------------------|--------7----------------------|


  E7							  E7
e|------- ------- ------- -------|4---4-- ------- ------- -------|
B|-------------------------------|3---3--------------------------|
G|----7--------------------------|--------------42---0----------|
D|9-------------97---5----------|-------------------------------|
A|-------------------------------|-------------------------------|
E|-------------------------------|-------------------------------|

  B7                              B7
e|------- ------- ------- -------|------- ------- ------- -------|
B|-------------------------------|-------------------------------|
G|-------------------------------|----2--------------------------|
D|----------------0---2---------2H4---------------4---0-------0--|
A|2-------2----------------------|-------------------------------|
E|-------------------------------|-------------------------------|

  E7                              E7
e|------- ------- ------- -------|------- ------- ------- -------|
B|------------------------8------|10B12---10B12---10-P8----------|
G|------------7---9--------------|------------------------9------|
D|5-----7/9----------------------|-------------------------------|
A|-------------------------------|-------------------------------|
E|-------------------------------|-------------------------------|

  A7                              A7
e|------- 10----- -----10 -----10|10--10- ------- ------- -------|
B|----------------10H12------1010H12--12-------1210--8----------|
G|-------------------------------|-------------------------------|
D|-------------------------------|-------------------------------|
A|-------------------------------|-------------------------------|
E|-------------------------------|-------------------------------|

  E7                              B7
e|------- ----10- ------- -------|------- ------- ------- -------|
B|-----------121210--8----------|-------------------------------|
G|-------------------------------|9---7--------------------------|
D|-------------------------------|--------------97---5----------|
A|-------------------------------|-------------------------------|
E|-------------------------------|-------------------------------|



 E7								  E7
e|------- 0------ 0---0-- -------|0------ 0------ 0------ 0------|
B|--------3-------3---3----------|3-------3-------3-------3------|
G|--------1-------1---1----------|1-------1-------1-------1------|
D|--------2-------2---2----------|2-------2-------2-------2------|
A|--------2-------2---2----------|2-------2-------2-------2------|
E|--------0-------0---0----------|0-------0-------0-------0------|
                                                  Well,   my
e|------- ------- ------- -------|------- ------- ------- -------|
B|-------------------------------|-------------------------------|
G|-------------------------------|--------0----------------------|
D|-------------------------------|--0-H-2------------------------|
A|7-------7-------------------0-H|2------------------------------|
E|--------------75---3----------|-------------------------------|



  A7							  A7
e|------- ------- ------- -------|------- ------- ------- -------|
B|-------------------------------|-------------------------------|
G|-------------------------------|-------------------------------|
D|2---2---2---2---2---2---2---2--|2---2---4---2---2---2---2---2--|
A|0---0---0---0---0---0---0---0--|0---0---0---0---0---0---0---0--|
E|-------------------------------|-------------------------------|
  heart           went       "boom"               When    I
e|------- ------- ------- -------|------- ------- ------- -------|
B|-------------------------------|-------------------------------|
G|-------------------------------|-------------------------------|
D|----------------2---2----------|----------------2--------------|
A|0---0---4---0-----------3---4--|0---0---4---0-------0---3---4--|
E|-------------------------------|-------------------------------|



  A7							  A7
e|------- ------- ------- -------|------- ------- ------- -------|
B|-------------------------------|-------------------------------|
G|-------------------------------|-------------------------------|
D|2---2---2---2---2---2---2---2--|2---2---4---2---2---2---2---2--|
A|0---0---0---0---0---0---0---0--|0---0---0---0---0---0---0---0--|
E|-------------------------------|-------------------------------|
  crossed         that        room                And     I
e|------- ------- ------- -------|------- ------- ------- -------|
B|-------------------------------|-------------------------------|
G|-------------------------------|-------------------------------|
D|----------------2---2----------|----------------2--------------|
A|0---0---4---0-----------3---4--|0---0---4---0-------0---3---4--|
E|-------------------------------|-------------------------------|




  A7							  A7
e|------- ------- ------- -------|------- ------- ------- -------|
B|-------------------------------|-------------------------------|
G|-------------------------------|-------------------------------|
D|2---2---2---2---2---2---2---2--|2---2---4---2---2---2---2---2--|
A|0---0---0---0---0---0---0---0--|0---0---0---0---0---0---0---0--|
E|-------------------------------|-------------------------------|
  held            her         hand                in 
e|------- ------- ------- -------|------- ------- ------- -------|
B|-------------------------------|-------------------------------|
G|-------------------------------|-------------------------------|
D|----------------2--------------|-------------------------------|
A|0---0---4---0-------0---3---4--|0---3---4---0---0---0---0---1--|
E|-------------------------------|-------------------------------|



  B7							 B7
e|------- ------- ------- -------|------- ------- ------- -------|
B|-------------------------------|-------------------------------|
G|-------------------------------|-------------------------------|
D|4---4---4---4---4---4---4---4--|4---4---4---4---4---4---4---4--|
A|2---2---2---2---2---2---2---2--|2---2---2---2---2---2---2---2--|
E|-------------------------------|-------------------------------|
  mine
e|------- ------- ------- -------|------- ------- ------- -------|
B|-------------------------------|-------------------------------|
G|-------------------------------|-------------------------------|
D|--------1-------4-------1---4--|--------1-------4--------------|
A|2---2-------2------------------|2---2---------------2---1------|
E|-------------------------------|-------------------------------|



  A7							  A7
e|------- ------- ------- -------|------- ------- ------- -------|
B|-------------------------------|-------------------------------|
G|-------------------------------|-------------------------------|
D|2---2---4---2---2---2---4---2--|2---2---4---2---2---2---4---2--|
A|0---0---0---0---0---0---0---0--|0---0---0---0---0---0---0---0--|
E|-------------------------------|-------------------------------|
                                          Oh          we      
e|------- ------- ------- -------|------- ------- ------- -------|
B|--------7-------5--------------|--------7-----7-7---5----------|
G|--------7-------6--------------|--------7-----7-7---6----------|
D|--------------------7----------|-------------------------------|
A|0------------------------------|-------------------------------|
E|-------------------------------|-------------------------------| 



  E7							  E7	
e|------- 0------ 0---0-- -------|------- 0---0-- ----0-- 0------|
B|--------3-------3---3----------|--------3---3-------3---3------|
G|--------1-------1---1----------|--------1---1-------1---1------|
D|--------2-------2---2----------|--------2---2-------2---2------|
A|--------2-------2---2----------|--------2---2-------2---2------|
E|--------0-------0---0----------|--------0---0-------0---0------|
  danced          through the night                       And we              
e|------- ------- ------- -------|------- ------- ------- -------|
B|-------------------------------|-------------------------------|
G|-------------------------------|-------------------------------|
D|-------------------------------|-------------------------------|
A|2---2---2-------2---2-------2--|2---2---2---2-------2-------2--|
E|0---0---0-------0---0-------0--|0---0---0---0-------0-------0--| 

e|------- 0------ ------- -------|------- ------- ------- -------|
B|--------------------3----------|-------------------------------|
G|-------------------------------|-------------------------------|
D|-------------------------------|-------------------------------|
A|-------------------------------|-------------------------------|
E|-------------------------------|-------------------------------|



  A7                              E7
e|------- 3------ 3---3-- -------|------- 0------ 0---0-- -------|
B|--------2-------2---2----------|--------3-------3---3----------|
G|--------2-------2---2----------|--------1-------1---1----------|
D|--------2-------2---2----------|--------2-------2---2----------|
A|--------0-------0---0----------|--------2-------2---2----------|
E|-------------------------------|--------0-------0---0----------|
  held    each    other         tight                       And be..           
e|------- ------- ------- -------|------- ------- ------- -------|
B|-------------------------------|-------------------------------|
G|-------------------------------|-------------------------------|
D|-------------------------------|-------------------------------|
A|2---2---2-------2---2-------2--|2---2---2-------2---2-------2--|
E|0---0---0-------0---0-------0--|0---0---0-------0---0-------0--|




  E7							  E7	
e|------- 0------ 0---0-- -------|------- 0------ 0---0-- -------|
B|--------3-------3---3----------|--------3-------3---3----------|
G|--------1-------1---1----------|--------1-------1---1----------|
D|--------2-------2---2----------|--------2-------2---2----------|
A|--------2-------2---2----------|--------2-------2---2----------|
E|--------0-------0---0----------|--------0-------0---0----------|
  fore    too long            I       fell in love        with her
e|------- ------- ------- -------|------- ------- ------- -------|
B|-------------------------------|-------------------------------|
G|-------------------------------|-------------------------------|
D|-------------------------------|-------------------------------|
A|2---2---2-------2---2-------2--|2---2---2-------2---2-------2--|
E|0---0---0-------0---0-------0--|0---0---0-------0---0-------0--|

e|------- ------- ------- -------|------- ------- ------- -------|
B|-------------------------------|-------------------------------|
G|-------------------------------|-------------------------------|
D|-------------------------------|-------------------------------|
A|-------------------------------|-------------------------------|
E|-------------------------------|----------------------------7--|


  B7							  B7
e|------- 7------ 7---7-- -------|------- 7------ 7------ -------|
B|-------10------10--10----------|-------10------10--------------|
G|--------8-------8---8----------|--------8-------8--------------|
D|--------9-------9---9----------|--------9-------9--------------|
A|--------9-------9---9----------|--------9-------9--------------|
E|--------7-------7---7----------|--------7-------7--------------|
                                                          Now    
e|------- ------- ------- -------|------- ------- ------- -------|
B|-------------------------------|-------------------------------|
G|-------------------------------|-------------------------------|
D|-------------------------------|-------------------------------|
A|9-------9-------9---9-------9--|--------9-------9--------------|
E|7-------7-------7---7-------7--|--------7-------7--------------|

e|------- ------- ------- -------|------- ------- ------- -------|
B|-------------------------------|-------------------------------|
G|-------------------------------|-------------------------------|
D|-------------------------------|----7--------------------------|
A|----------------5---7---------7/9-------------97---5----------|
E|--------7----------------------|-------------------------------|




  E7                              E7
e|0------ ----0-- ------- -------|0------ ----0-- ------- -------|
B|0-----------0------------------|3-----------3------------------|
G|1-----------1------------------|1-----------1------------------|
D|2-----------2------------------|2-----------2------------------|
A|2-----------2------------------|2-----------2------------------|
E|0-----------0------------------|0-----------0------------------|
  I'll            never       dance               with an.....



  A7                              C
e|------- 0------ 0---0-- -------|3------ ----3-- ------- 3------|
B|--------2-------2---2----------|5-----------5-----------5------|
G|--------2-------2---2----------|5-----------5-----------5------|
D|--------2-------2---2----------|5-----------5-----------5------|
A|--------0-------0---0----------|3-----------3-----------3------|
E|-------------------------------|-------------------------------|
 other                            Whooh                   And I


  E7                              B7
e|------- 0------ 0---0-- -------|7------ 7---7-- ----7-- -------|
B|--------0-------0---0----------|7-------7---7-------7----------|
G|--------1-------1---1----------|8-------8---8-------8----------|
D|--------2-------2---2----------|9-------9---9-------9----------|
A|--------2-------2---2----------|9-------9---9-------9----------|
E|--------0-------0---0----------|7-------7---7-------7----------|
  saw              her            stan................din'    there



 E7								  E7
e|------- 0------ 0---0-- -------|0------ 0------ 0---0-- -------|
B|--------3-------3---3----------|3-------3-------3---3----------|
G|--------1-------1---1----------|1-------1-------1---1----------|
D|--------2-------2---2----------|2-------2-------2---2----------|
A|--------2-------2---2----------|2-------2-------2---2----------|
E|--------0-------0---0----------|0-------0-------0---0----------|
                                          Oh,     since I
e|------- ------- ------- -------|------- ------- ------- -------|
B|-------------------------------|-------------------------------|
G|-------------------------------|-------------------------------|
D|-------------------------------|-------------------------------|
A|2---2---2-------2---2-------2--|2---2---2-------2---2-------2--|
E|0---0---0-------0---0-------0--|0---0---0-------0---0-------0--|
 
e|------- 4------ 4---4-- -------|4------ 4------ ------- -------|
B|--------3-------3---3----------|3-------3----------------------|
G|-------------------------------|-------------------------------|
D|-------------------------------|-------------------------------|
A|-------------------------------|-------------------------------|
E|-------------------------------|-------------------------------|



 E7                               B7
e|------- 0------ 0---0-- -------|7------ 7------ 7---7-- -------|
B|--------3-------3---3----------|7-------7-------7---7----------|
G|--------1-------1---1----------|8-------8-------8---8----------|
D|--------2-------2---2----------|9-------9-------9---9----------|
A|--------2-------2---2----------|9-------9-------9---9----------|
E|--------0-------0---0----------|7-------7-------7---7----------|
  saw             her             standing                    there
e|------- ------- ------- -------|------- ------- ------- -------|
B|-------------------------------|-------------------------------|
G|-------------------------------|-------------------------------|
D|-------------------------------|-------------------------------|
A|2---2---2-------2---2-------2--|9---9---9-------9---9-------2--|
E|0---0---0-------0---0-------0--|7---7---7-------7---7-------0--|



  E7                              E7
e|------- 0------ 0---0-- -------|0------ 0------ 0---0-- -------|
B|--------3-------3---3----------|3-------3-------3---3----------|
G|--------1-------1---1----------|1-------1-------1---1----------|
D|--------2-------2---2----------|2-------2-------2---2----------|
A|--------2-------2---2----------|2-------2-------2---2----------|
E|--------0-------0---0----------|0-------0-------0---0----------|
                                  Yeah,   well    since I
e|------- 4------ 4---4-- -------|4------ 4------ ------- -------|
B|--------3-------3---3----------|3-------3----------------------|
G|-------------------------------|-------------------------------|
D|-------------------------------|-------------------------------|
A|-------------------------------|-------------------------------|
E|-------------------------------|-------------------------------|



  E7                              B7
e|------- 0------ 0---0-- -------|7------ 7---7-- ----7-- 7------|
B|--------3-------3---3----------|7-------7---7-------7---7------|
G|--------1-------1---1----------|8-------8---8-------8---8------|
D|--------2-------2---2----------|9-------9---9-------9---9------|
A|--------2-------2---2----------|9-------9---9-------9---9------|
E|--------0-------0---0----------|7-------7---7-------7---7------|
  saw             her             standing                    there
e|------- ------- ------- -------|------- ------- ------- -------|
B|-------------------------------|-------------------------------|
G|-------------------------------|-------------------------------|
D|-------------------------------|-------------------------------|
A|2---2---2-------2---2-------2--|9---9---9-------9---9----------|
E|0---0---0-------0---0-------0--|7---7---7-------7---7----------|


                                                           
  A7                              E7
e|5------ 5------ ----5-- -------|0------ ----0-- ------- 0------|
B|5-------5-----------5----------|3-----------3-----------3------|
G|6-------6-----------6----------|1-----------1-----------1------|
D|7-------7-----------7----------|2-----------2-----------2------|
A|7-------7-----------7----------|2-----------2-----------2------|
E|5-------5-----------5----------|0-----------0-----------0------|
                                                          E9
e|------- 7------ ------- -------|------- ------- ------- -------|
B|--------7-------5--------------|------------------------7------|
G|--------7-------6--------------|------------------------7------|
D|--------7-----------7----------|------------------------6------|
A|-------------------------------|------------------------7------|
E|-------------------------------|-------------------------------|


        B  Bend
        R  Release
        /  slide up
          slide down
        H  hammer-on
        P  pull-off
        ~  vibrato
        +  harmonic
        x  Mute note
        . - play note like a dot in standard notation
        ^ - ties two notes together


BASS TAB

Intro:
G|------- ------- ------- -------|------- ------- ------- -------|
D|--------6-------9-------7---6--|--------6-------9-------7---6--|
A|7---7-------7-------7----------|7---7-------7-------7----------|
E|-------------------------------|-------------------------------|



G|------- ------- ------- -------|------- ------- ------- -------|
D|--------6-------9-------7---6--|--------6-------9-------7---6--|
A|7---7-------7-------7----------|7---7-------7-------7----------|
E|-------------------------------|-------------------------------|
                                            Well, she was     just

Verse:
G|------- ------- ------- -------|------- ------- ------- -------|
D|--------6-------9-------7---6--|--------6-------9-------7---6--|
A|7---7-------7-------7----------|7---7-------7-------7----------|
E|-------------------------------|-------------------------------|
                  seven   -   teen,                   and you


G|------- ------- ------- -------|------- ------- ------- -------|
D|-------------------------------|--------6-------9-------7---6--|
A|--------4-------7-------5---5--|7---7-------7-------7----------|
E|5---5-------5-------5----------|-------------------------------|
  know            what I      mean,                       And the


G|------- ------- ------- -------|------- ------- ------- -------|
D|--------6-------9-------7---6--|--------6-------9-------7---6--|
A|7---7-------7-------7----------|7---7-------7-------7----------|
E|-------------------------------|-------------------------------|
  way     she looked          was way         be- yond    compare


G|------- ------- ------- -------|------- ------- ------- -------|
D|-------------------------------|-------------------------------|
A|--------6-------9-------7---7--|--------6-------9-------7---7--|
E|7---7-------7-------7----------|7---7-------7-------7----------|
                                                          So,


G|------- ------- ------- -------|------- ------- ------- -------|
D|-------------------------------|6-------6-------6-------6------|
A|7-------7-------7-------7------|-------------------------------|
E|-------------------------------|-------------------------------|
  how             could I     dance               with an  -  o-


G|------- ------- ------- -------|5------ 5------ 5------ 5------|
D|7-------7-------7-------7------|-------------------------------|
A|-------------------------------|-------------------------------|
E|-------------------------------|-------------------------------|
      ther,                   Wooh,                  when I


G|------- ------- ------- -------|------- ------- ------- -------|
D|--------6-------9---9---7---6--|-------------------------------|
A|7-----------7------------------|--------6-------9-------7---7--|
E|-------------------------------|7---7-------7-------7----------|
  saw             her             stan        -       ding    there


G|------- ------- ------- -------|------- ------- ------- -------|
D|--------6-------9-------7---6--|--------6-------9-------7---6--|
A|7---7-------7-------7----------|7---7-------7-------7----------|
E|-------------------------------|-------------------------------|
                                                         Well, she

Verse:
G|------- ------- ------- -------|------- ------- ------- -------|
D|--------6-------9-------7---6--|--------6-------9-------7---6--|
A|7---7-------7-------7----------|7---7-------7-------7----------|
E|-------------------------------|-------------------------------|
                  looked      me,                         and
                     at

G|------- ------- ------- -------|------- ------- ------- -------|
D|-------------------------------|--------6-------9-------7---6--|
A|--------4-------7-------5---5--|7---7-------7-------7----------|
E|5---5-------5-------5----------|-------------------------------|
  I,          I       could   see                         That be-


G|------- ------- ------- -------|------- ------- ------- -------|
D|--------6-------9-------7---6--|--------6-------9-------7---6--|
A|7---7-------7-------7----------|7---7-------7-------7----------|
E|-------------------------------|-------------------------------|
  fore    too long                I'd   fall in   love   with her


G|------- ------- ------- -------|------- ------- ------- -------|
D|-------------------------------|-------------------------------|
A|--------6-------9-------7---7--|--------6-------9-------7------|
E|7---7-------7-------7----------|7---7-------7-------7----------|



G|------- ------- ------- -------|------- ------- ------- -------|
D|-------------------------------|6-------6-------6-------6------|
A|7-------7-------7-------7------|-------------------------------|
E|-------------------------------|-------------------------------|
  She             wouldn't    dance               with an  -  o-


G|------- ------- ------- -------|5------ 5------ 5------ 5------|
D|7-------7-------7-------7------|-------------------------------|
A|-------------------------------|-------------------------------|
E|-------------------------------|-------------------------------|
      ther,                   Wooh,                  when I


G|------- ------- ------- -------|------- ------- ------- -------|
D|--------6-------9---9---7---6--|-------------------------------|
A|7-----------7------------------|--------6-------9-------7---7--|
E|-------------------------------|7---7-------7-------7----------|
  saw             her             stan        -       ding    there


G|------- ------- ------- -------|------- ------- ------- -------|
D|--------6-------9-------7---6--|-------------------------------|
A|7---7-------7-------7----------|7-------5-------4--------------|
E|-------------------------------|------------------------7------|
                                                  Well,   my

Bridge:
G|------- ------- ------- -------|------- ------- ------- -------|
D|-------------------------------|-------------------------------|
A|--------4-------7-------5---4--|--------4-------7-------5---4--|
E|5---5-------5-------5----------|5---5-------5-------5----------|
  heart           went        boom,               when    I


G|------- ------- ------- -------|------- ------- ------- -------|
D|-------------------------------|-------------------------------|
A|--------4-------7-------5---4--|--------4-------7-------5---4--|
E|5---5-------5-------5----------|5---5-------5-------5----------|
  crossed         that        room,               And     I


G|------- ------- ------- -------|------- ------- ------- -------|
D|-------------------------------|-------------------------------|
A|--------4-------7-------5---4--|--------4-------7-------5---4--|
E|5---5-------5-------5----------|5---5-------5-------5----------|
  held            her             hand            in


G|------- ------- ------- -------|------- ------- ------- -------|
D|-------------------------------|-------------------------------|
A|--------6-------9-------7---6--|--------6-------9-------7---6--|
E|7---7-------7-------7----------|7---7-------7-------7----------|
  mine!


G|------- ------- ------- -------|------- ------- ------- -------|
D|-------------------------------|-------------------------------|
A|--------4-------7-------5---4--|--------4-------7-------5---4--|
E|5---5-------5-------5----------|5---5-------5-------5----------|
                                              Woah,       we  danced

Verse:
G|------- ------- ------- -------|------- ------- ------- -------|
D|--------6-------9-------7---6--|--------6-------9-------7---7--|
A|7---7-------7-------7----------|7---7-------7-------7----------|
E|-------------------------------|-------------------------------|
                  through     night,                      and we
                      the

G|------- ------- ------- -------|------- ------- ------- -------|
D|-------------------------------|--------6-------9-------7---6--|
A|--------4-------7-------5---4--|7---7-------7-------7----------|
E|5---5-------5-------5----------|-------------------------------|
  held    each    o - ther    tight,                      And be-


G|------- ------- ------- -------|------- ------- ------- -------|
D|--------6-------9-------7---6--|--------6-------9-------7---6--|
A|7---7-------7-------7----------|7---7-------7-------7----------|
E|-------------------------------|-------------------------------|
  fore    too long                I     fell in   love   with her


G|------- ------- ------- -------|------- ------- ------- -------|
D|-------------------------------|-------------------------------|
A|--------6-------9-------7---6--|--------6-------9-------7---7--|
E|7---7-------7-------7----------|7---7-------7-------7----------|
                                                          Now,


G|------- ------- ------- -------|------- ------- ------- -------|
D|----------------6-------9------|----------------6-------9------|
A|7-------7----------------------|7-------7----------------------|
E|-------------------------------|-------------------------------|
  I'll            ne- ver     dance               with an  -  o-


G|------- ------- ------- -------|5------ 5------ 5------ 5------|
D|7-------7-------7-------7------|-------------------------------|
A|-------------------------------|-------------------------------|
E|-------------------------------|-------------------------------|
      ther,                   Wooh,                  since I


G|------- ------- ------- -------|------- ------- ------- -------|
D|--------6-------9---9---7---6--|-------------------------------|
A|7-----------7------------------|--------6-------9-------7---6--|
E|-------------------------------|7---7-------7-------7----------|
  saw             her             stan        -       ding    there


G|------- ------- ------- -------|------- ------- ------- -------|
D|--------6-------9-------7---6--|9---9---9---9---9---9---9---9--|
A|7---7-------7-------7----------|-------------------------------|
E|-------------------------------|-------------------------------|


Verse (solo):
G|------- ------- ------- -------|------- ------- ------- -------|
D|--------6-------9-------7---6--|--------6-------9-------7---6--|
A|7---7-------7-------7----------|7---7-------7-------7----------|
E|-------------------------------|-------------------------------|



G|------- ------- ------- -------|------- ------- ------- -------|
D|--------6-------9-------7---6--|--------6-------9-------7---6--|
A|7---7-------7-------7----------|7---7-------7-------7----------|
E|-------------------------------|-------------------------------|



G|------- ------- ------- -------|------- ------- ------- -------|
D|--------6-------9-------7---6--|--------6-------9--------------|
A|7---7-------7-------7----------|7---7-------7-------7---7---6--|
E|-------------------------------|-------------------------------|



G|------- ------- ------- -------|------- ------- ------- -------|
D|-------------------------------|-------------------------------|
A|--------6-------9-------7---6--|-------------------------------|
E|7---7-------7-------7----------|7-----------7---7-------7------|



G|------- ------- ------- -------|------- ------- ------- -------|
D|-------------------------------|----------------6---6---6---9--|
A|7---7---7---7---7---7---7---7--|7---7---7---7------------------|
E|-------------------------------|-------------------------------|



G|------- ------- ------- -------|------- ------- ------- -------|
D|7---7---7---7---7---7---7---7--|7---7---7---7---7---7---7---9--|
A|-------------------------------|-------------------------------|
E|-------------------------------|-------------------------------|



G|------- ------- ------- -------|------- ------- ------- -------|
D|--------6-------9-------7---6--|----------------7---7---6---4--|
A|7---7-------7-------7----------|--------6---9------------------|
E|-------------------------------|7---7--------------------------|



G|------- ------- ------- -------|------- ------- ------- -------|
D|--------6-------9-------7---6--|-------------------------------|
A|7---7-------7-------7----------|7-------5-------4--------------|
E|-------------------------------|------------------------7------|
                                                  Well,   my

Bridge:
G|------- ------- ------- -------|------- ------- ------- -------|
D|-------------------------------|-------------------------------|
A|--------4-------7-------5---4--|--------4-------7-------5---4--|
E|5---5-------5-------5----------|5---5-------5-------5----------|
  heart           went        boom,               when    I


G|------- ------- ------- -------|------- ------- ------- -------|
D|-------------------------------|-------------------------------|
A|--------4-------7-------5---4--|--------4-------7-------5---4--|
E|5---5-------5-------5----------|5---5-------5-------5----------|
  crossed         that        room,               And     I


G|------- ------- ------- -------|------- ------- ------- -------|
D|-------------------------------|-------------------------------|
A|--------4-------7-------5---4--|--------4-------7-------5---4--|
E|5---5-------5-------5----------|5---5-------5-------5----------|
  held            her             hand            in


G|------- ------- ------- -------|------- ------- ------- -------|
D|-------------------------------|-------------------------------|
A|--------6-------9-------7---6--|--------6-------9---9---7---6--|
E|7---7-------7-------7----------|7---7-------7------------------|
  mine!


G|------- ------- ------- -------|------- ------- ------- -------|
D|-------------------------------|-------------------------------|
A|--------4-------7-------5---4--|--------4-------7-------5---4--|
E|5---5-------5-------5----------|5---5-------5-------5----------|
                                              Woah,       we  danced

Verse:
G|------- ------- ------- -------|------- ------- ------- -------|
D|--------6-------9-------7---6--|--------6-------9-------7---7--|
A|7---7-------7-------7----------|7---7-------7-------7----------|
E|-------------------------------|-------------------------------|
                  through     night,                      and we
                      the

G|------- ------- ------- -------|------- ------- ------- -------|
D|-------------------------------|--------6-------9-------7---6--|
A|--------4-------7-------5---4--|7---7-------7-------7----------|
E|5---5-------5-------5----------|-------------------------------|
  held    each    o - ther    tight,                      And be-


G|------- ------- ------- -------|------- ------- ------- -------|
D|--------6-------9-------7---6--|--------6-------9-------7---6--|
A|7---7-------7-------7----------|7---7-------7-------7----------|
E|-------------------------------|-------------------------------|
  fore    too long                I     fell in   love   with her


G|------- ------- ------- -------|------- ------- ------- -------|
D|-------------------------------|-------------------------------|
A|--------6-------9-------7---6--|--------6-------9-------7---6--|
E|7---7-------7-------7----------|7---7-------7-------7----------|
                                                          Now,


G|------- ------- ------- -------|------- ------- ------- -------|
D|-------------------------------|6-------6-------6-------6------|
A|7-------7-------7-------7------|-------------------------------|
E|-------------------------------|-------------------------------|
  I'll            ne- ver     dance               with an  -  o-


G|------- ------- ------- -------|5------ 5------ 5------ 5------|
D|7-------7-------7-------7------|-------------------------------|
A|-------------------------------|-------------------------------|
E|-------------------------------|-------------------------------|
      ther,                   Wooh,                  since I


G|------- ------- ------- -------|------- ------- ------- -------|
D|--------6-------9---9---7---6--|-------------------------------|
A|7---7-------7------------------|--------6-------9-------7---7--|
E|-------------------------------|7---7-------7-------7----------|
  saw             her             stan        -       ding    there


G|------- ------- ------- -------|------- ------- ------- -------|
D|--------6-------9-------7---6--|--------6-------9-------7---6--|
A|7---7-------7-------7----------|7---7-------7-------7----------|
E|-------------------------------|-------------------------------|
                                          Woah,   since I

Outro:
G|------- ------- ------- -------|------- ------- ------- -------|
D|--------6-------9---9---7---6--|-------------------------------|
A|7---7-------7------------------|--------6-------9-------7---7--|
E|-------------------------------|7---7-------7-------7----------|
  saw             her             stan        -       ding    there


G|------- ------- ------- -------|------- ------- ------- -------|
D|--------6-------9-------7---6--|--------6-------9-------7---6--|
A|7---7-------7-------7----------|7-----------7-------7----------|
E|-------------------------------|-------------------------------|
                                  Yeah,   well,   since I


G|------- ------- ------- -------|------- ------- ------- -------|
D|--------6-------9---9---7---6--|-------------------------------|
A|7---7-------7------------------|--------6-------9-------7---6--|
E|-------------------------------|7---7-------7-------7----------|
  saw             her             stan        -       ding    there


G|------- ------- ------- -------|------- ----9-- ------- -------|
D|7---7---7---7---7---7---7---7--|----6---9----------------------|
A|-------------------------------|7-----------------------7------|
E|-------------------------------|-------------------------------|




Ook op Please Please Me:

ChordsNotes On
I Saw Her Standing There I Saw Her Standing There
Love Me Do Love Me Do
Misery Misery
Anna (Go to Him) Anna (Go to Him)
Chains Chains
Boys Boys
Ask Me Why Ask Me Why
Please Please Me Please Please Me
P.S. I Love You P.S. I Love You
Baby It's You Baby It's You
Do You Want to Know a Secret Do You Want to Know a Secret
A Taste of Honey A Taste of Honey
There's a Place There's a Place
Twist and Shout Twist and Shout

Ook op Anthology 1:

ChordsNotes On
Free As A Bird Free As A Bird
Speeches_ant_1 We Were Four Guys ... That's All (john Lennon Speaking To Jann Wenner) 
That'll Be The Day 
In Spite Of All The Danger 
Sometimes I'd Borrow ... Those Still Exist 
Hallelujah, I Love Her So 
You'll Be Mine 
Cayenne 
First Of All ... It Didn't Do A Thing Here 
My Bonnie 
Ain't She Sweet 
Cry For A Shadow 
Brian Was A Beautiful Guy ... He Presented Us Well 
I Secured Them ... A Beatle Drink Even Then 
Searching 
Three Cool Cats 
Sheik Of Araby 
Like Dreamers Do 
Hello Little Girl 
Well, The Recording Test ... By My Artists 
Besame Mucho 
Love Me Do Love Me Do
How Do You Do It 
Please Please Me Please Please Me
One After 909 (Takes 3, 4, & 5)
One After 909 (Takes 4 & 5)
Lend Me Your Comb 
I'll Get You (Live at the London Palladium)
We Were Performers ... In Britain 
I Saw Her Standing There (Live in Stockholm)
From Me To You (Live in Stockholm)
Money (that's What I Want) (Live in Stockholm)
You've Really Got A Hold On Me (Live in Stockholm)
Roll Over Beethoven (Live in Stockholm)
She Loves You (Live at the Royal Variety Show)
Till There Was You (Live at the Royal Variety Show)
Twist And Shout (Live at the Royal Variety Show)
This Boy (Live on The Morecambe and Wise Show)
I Want To Hold Your Hand (Live on The Morecambe and Wise Show)
Boys, What I Was Thinking ... (morecambe & Wise Speaking To The Beatles) 
Moonlight Bay (Live on The Morecambe and Wise Show)
Can't Buy Me Love (Takes 1 & 2)
All My Loving Live on The Ed Sullivan Show)
You Can't Do That (Take 6)
And I Love Her (Take 2)
A Hard Day's Night (Take 1)
I Wanna Be Your Man I Wanna Be Your Man
Long Tall Sally Long Tall Sally
Boys Boys
Shout ! 
I'll Be Back (Take 2)
I'll Be Back (Take 3)
You Know What To Do 
No Reply No Reply
Mr. Moonlight (Takes 1 & 4)
Leave My Kitten Alone (Take 5)
No Reply (Take 2)
Eight Days A Week (Takes 1, 2 & 4)
Eight Days A Week (Take 5)
Kansas City-Hey-Hey-Hey-Hey! [medley] (Take 1)

Ook op Live At The BBC:

ChordsNotes On
Beatle Greetings (speech) 
From Us To You 
Riding On A Bus (speech) 
I Got A Woman 
Too Much Monkey Business 
Keep Your Hands Off My Baby 
I'll Be On My Way 
Young Blood 
A Shot Of Rhythm And Blues 
Sure To Fall 
Some Other Guy 
Thank You Girl Thank You Girl
Sha La La La La! (speech) 
Baby It's You Baby It's You
That's All Right (mama) 
Carol 
Soldier Of Love 
A Little Rhyme (speech) 
Clarabella 
I'm Gonna Sit Right Down And Cry (over You) 
Crying, Waiting, Hoping 
Dear Wack! (speech) 
You've Really Got a Hold on Me You've Really Got a Hold on Me
To Know Her Is To Love Her 
A Taste of Honey A Taste of Honey
Long Tall Sally Long Tall Sally
I Saw Her Standing There I Saw Her Standing There
The Honeymoon Song 
Johnny B. Goode 
Memphis, Tennessee 
Lucille 
Can't Buy Me Love Can't Buy Me Love
From Fluff To You (speech) 
Till There Was You Till There Was You
Crinsk Dee Night 
A Hard Day's Night A Hard Day's Night
Have A Banana! 
I Wanna Be Your Man I Wanna Be Your Man
Just A Rumour 
Roll over Beethoven Roll over Beethoven
All My Loving All My Loving
Things We Said Today Things We Said Today
She's a Woman She's a Woman
Sweet Little Sixteen 
1822! 
Lonesome Tears In My Eyes 
Nothin' Shakin' 
The Hippy Hippy Shake 
Glad All Over 
I Just Don't Understand 
So How Come (no One Loves Me) 
I Feel Fine I Feel Fine
I'm a Loser I'm a Loser
Everybody's Trying to Be My Baby Everybody's Trying to Be My Baby
Rock & Roll Music Rock & Roll Music
Ticket to Ride Ticket to Ride
Dizzy Miss Lizzy Dizzy Miss Lizzy
Kansas City-Hey-Hey-Hey-Hey! [Medley] Kansas City-Hey-Hey-Hey-Hey! [Medley]
Set Fire To That Lot! 
Matchbox Matchbox
I Forgot To Remember To Forget 
Love These Goon Shows! 
I Got To Find My Baby 
Ooh! My Soul 
Ooh! My Arms 
Don't Ever Change 
Slow Down Slow Down
Honey Don't Honey Don't
Love Me Do Love Me Do

Ook op On Air - Live At The BBC Vol 2:

ChordsNotes On
And Here We Are Again (speech) 
Words of Love Words of Love
How About It, Gorgeus? (speech) 
Do You Want to Know a Secret Do You Want to Know a Secret
Lucille 
Hey, Paul... (speech) 
Anna (Go to Him) Anna (Go to Him)
Hello! (speech) 
Please Please Me Please Please Me
Misery Misery
I'm Talking About You 
A Real Treat (speech) 
Boys Boys
Absolutely Fab (speech) 
Chains Chains
Ask Me Why Ask Me Why
Till There Was You Till There Was You
Lend Me Your Comb 
Lower 5e (speech) 
The Hippy Hippy Shake 
Roll over Beethoven Roll over Beethoven
There's a Place There's a Place
Bumper Bundle (speech) 
P.S. I Love You P.S. I Love You
Please Mr. Postman Please Mr. Postman
Beautiful Dreamer 
Devil in Her Heart Devil in Her Heart
The 49 Weeks (speech) 
Sure To Fall 
Never Mind, Eh? (speech) 
Twist and Shout Twist and Shout
Bye, Bye (speech) 
John Pop Profile (speech) 
George Pop Profile (speech) 
I Saw Her Standing There I Saw Her Standing There
Glad All Over 
Lift Lid Again (speech) 
I'll Get You I'll Get You
She Loves You She Loves You
Memphis, Tennessee 
Happy Birthday, Dear Saturday Club 
Now Hush, Hush (speech) 
From Me to You From Me to You
Money (That's What I Want) Money (That's What I Want)
I Want to Hold Your Hand I Want to Hold Your Hand
Brian Bathtubes 
This Boy This Boy
If I Wasn't In America 
I Got A Woman 
Long Tall Sally Long Tall Sally
If I Fell If I Fell
A Hard Job Writing Them (speech) 
And I Love Her And I Love Her
Oh, Can't We? Yes We Can (speech) 
You Can't Do That You Can't Do That
Honey Don't Honey Don't
I'll Follow the Sun I'll Follow the Sun
Green With Black Shutters (speech) 
Kansas City-Hey-Hey-Hey-Hey! [Medley] Kansas City-Hey-Hey-Hey-Hey! [Medley]
That's What We're Here For (speech) 
I Feel Fine (Studio Outtake)
Paul Pop Profile (speech) 
Ringo Pop Profile (speech) 

(c) 2019 Serge Girard