sg
In My Life


Index     Home     Vorige    


In My Life

Composer(s) : Lennon and McCartney
Year : 1966
Duration :
Key :
Meter :

Alan W. Pollack 's "Notes On" In My Life

Main Riff: E----5-----0-4-
           B--2---2-3-----
           G--2-----------

There are places I'll remember  
          A             F#m

All my life though some have changed
       Bm Dm       A

Some for ever not for better
         A            F#m

Some have gone, and some remain.
          Bm Dm     A

All these places have their moments
          F#m               Bm

With lovers and friends, I still can recall
     G                     A

Some are dead and some are living
         F#m               Bm

In my life, I've loved them all
   D  Dm         A

{Repeat main riff, and continue as verse above}

But of all these friends and lovers
There is no one compared with you
And these memories lose their meaning
When I think of love as something new
Thought I know I'll never lose affection
For people and things that went before
I know I'll often stop and think about them
In my life I'll love you more
In my life I'll love you more

At the end, there is the first riff above, then a higher Dm (played as a bar
chord at the 5th fret) then the riff below:

                             E7       A
Last Riff: E----5-----0-4----4--2--4--5
           B--2---2-3--------3--------5
           G--2--------------4--------6
           D--------------------------7

CHORD FORMATIONS:
A   x 0 2 2 2 0
F#m 2 4 4 2 2 2  (Bar across 2nd fret)
Bm  x x 4 4 3 2
Dm  x x 0 2 3 1
G   3 2 0 0 3 3




e -|-------5-------------------4---------5-------------------4-|
B -|--2---------2----3----5---------2---------2----3----5------|
G -|-----------------------------------------------------------|
D -|-----------------------------------------------------------|
A -|-----------------------------------------------------------|
E -|-----------------------------------------------------------|            
   
    Then the ending:

e -|--------5------------------4--------4----2----4---5--------|
B -|---2--------2----3----5------------------------------------|
G -|-----------------------------------------------------------|
D -|-----------------------------------------------------------|
A -|-----------------------------------------------------------|
E -|-----------------------------------------------------------|

    (A)          (E)
|-----5-------------|--------|
|----------------9--|-----/--|
|--6-----6h7--9-----|--.-/---|
|-------------------|---/-.--|
|-------------------|--/-----|
|-------------------|--------|


ELECTRIC PIANO SOLO:


|------------9-----12p10--12----------------------9p7--9---10--12--15--|
|-----10h12----10-------------12-----12---7h9/10-----------------------|
|---------------------------------9------------------------------------|
|----------------------------------------------------------------------|
|--0-------------------------------------------------------------------|
|----------------------------------------------------------------------|


|-14-12-14----14----14----13p12--13-------12-10-12-9-12----12----12p10--12-9-----|
|----------15----14----12-----------15-12---------------12----10-------------12--|
|--------------------------------------------------------------------------------|
|--------------------------------------------------------------------------------|
|--------------------------------------------------------------------------------|
|--------------------------------------------------------------------------------|


(FIRST LINE AGAIN)


|--12--9h10h12--9-------------------------------|
|-----------------10---9---10p9p7---------------|
|--------------------9-------------9p7p6--------|
|------------------------------------------9p7--|
|-----------------------------------------------|
|-----------------------------------------------|





Ook op Rubber Soul:

ChordsNotes On
Drive My Car Drive My Car
Norwegian Wood (This Bird Has Flown) Norwegian Wood (This Bird Has Flown)
You Won't See Me You Won't See Me
Nowhere Man Nowhere Man
Think for Yourself Think for Yourself
The Word The Word
Michelle Michelle
What Goes On What Goes On
Girl Girl
I'm Looking Through You I'm Looking Through You
In My Life In My Life
Wait Wait
If I Needed Someone If I Needed Someone
Run for Your Life Run for Your Life

Ook op 1962-1966:

ChordsNotes On
Love Me Do Love Me Do
Please Please Me Please Please Me
From Me to You From Me to You
She Loves You She Loves You
I Want to Hold Your Hand I Want to Hold Your Hand
All My Loving All My Loving
Can't Buy Me Love Can't Buy Me Love
A Hard Day's Night A Hard Day's Night
And I Love Her And I Love Her
Eight Days a Week Eight Days a Week
I Feel Fine I Feel Fine
Ticket to Ride Ticket to Ride
Yesterday Yesterday
Help! Help!
You've Got to Hide Your Love Away You've Got to Hide Your Love Away
We Can Work It Out We Can Work It Out
Day Tripper Day Tripper
Drive My Car Drive My Car
Norwegian Wood (This Bird Has Flown) Norwegian Wood (This Bird Has Flown)
Nowhere Man Nowhere Man
Michelle Michelle
In My Life In My Life
Girl Girl
Paperback Writer Paperback Writer
Eleanor Rigby Eleanor Rigby
Yellow Submarine Yellow Submarine

(c) 2019 Serge Girard