sg
Sexy Sadie


Index     Home     Vorige    


Sexy Sadie

Composer(s) : Lennon and McCartney
Year : 1968

Alan W. Pollack 's "Notes On" Sexy Sadie

 
 CHORDS:
        G 3-5-5-4-3-3          F# 2-4-4-3-2-2           Am 5-7-7-5-5-5  
        C X-3-2-0-1-0           F 1-3-3-2-1-1           Bm 7-9-9-7-7-7
        D 0-0-0-3-2-3         Bm X-2-4-4-3-4           C2 8-10-10-9-8-8

	Play the little arpeggio with chord:
	
	 Bm
	E-2----------2-------
	B-3--------3---3-----
	G-4------4-------4---
	D-4----4-----------4-
	A-2------------------
	E-------------------- 


INTRO: G C D G F# F D

       G     F#    Bm
        Sexy Sadie    what have you done

       C           D             G    F#
        You made a  fool of everyone

       C           D             G    F#
        You made a  fool of everyone

             F       D
        Sexy Sadie ooh what have you done


        Sexy Sadie you broke the rules
        You layed it down for all to see
        You layed it down for all to see
        Sexy Sadie oooh you broke the rules


       G                  Am                      Bm     C
        One sunny day the world was waiting for a lover

       G           Am                  Bm     C
        She came along to turn on everyone

       Am              G#               G
        Sexy Sadie the greatest of them all


        Sexy Sadie how did you know
        The world was waiting just for you
        The world was waiting just for you
        Sexy Sadie oooh how did you know

        Sexy Sadie you'll get yours yet
        However big you think you are
        However big you think you are
        Sexy Sadie oooh you'll get yours yet
         
        We gave her everything we owned just to sit at her table
        Just a smile would lighten everything
        Sexy Sadie she's the latest and the greatest of them all

        G F# Bm C D G F#

       C           D            G    F#
        She made a fool of everyone

       F           D
        Sexy Sadie

        G F# Bm C D G F#

       C        D                 G    F#
        However big you think you are

       F           D
        Sexy Sadie

        G F# Bm C D G F# F D ... (and fade)

 

e|------- ------- ------- 5------|3------ 3------ 5------ 7---8--|
B|------------------------5------|5-------5-------7-7-----8--10--|
G|------------------------7---7--|5-------5-------7--------------|
D|-------------------------------|----------------0---0----------|
A|-------------------------------|3---3--------3-----------------|
E|-------------------------------|-------------------------------|




e|10--7-- ------- ------- -------|------- ------- ------- -------|
B|12--8---8----------------------|------------------------------3|
G|-0------7---7---6---6-------6--|5---5-------5---2---2---4-5---4|
D|------------9---8---8-------8--|7---7-------7---4---4---5-7---5|
A|----------------9---9---9------|8-------8-------5--------------|
E|-------------------------------|-------------------------------|



  G               F#              Bm 
e|------- ------- ------- -------|2------ 2------ 2------ 2------|
B|----3---3---3---2-------2------|3-------3-------3-------3------|
G|----4---4---4---3-------3------|4-------4-------4---4---2------|
D|----5---5---5---4-------4------|4-----------4-------------4----|
A|-------------------------------|2-----------------------2------|
E|3---3-------3---2---2-------2--|-------------------------------|
          Sexy Sadie                   What have you done?
e|------- ------- ------- -------|------- ------- 2------ -------|
B|-------------------------------|------------3-------3----------|
G|-------------------------------|--------4---------------4------|
D|--------5---------------4------|----4-----------------------4--|
A|----5-------5-------4-------2--|2------------------------------|
E|3---------------2--------------|-------------------------------|



  C               D               G               F#
e|0------ 0------ 5---5-- 7---8--|10--7-- ------- ------- -------|
B|1-------1-------7---7---8--10--|12--8---8----------------------|
G|0-------0-------7---7----------|-0------7---7---6-------6------|
D|----0---2-------0-------0------|------------9---8-------8------|
A|3-----------3------------------|----------------9-------9------|
E|-------------------------------|-------------------------------|
      You  made a fool of  everyone 
e|------- ------- ------- -------|------- ------- ------- -------|
B|-------------------------------|-------------------------------|
G|--------5---------------7------|-------------------------------|
D|----5-------5-------7-------7--|--------5---------------4------|
A|3---------------5--------------|----5-------5-------4-------4--|
E|-------------------------------|3---------------2--------------|                      



  C               D               G               F#   
e|0------ 0------ 2------ 2------|------- ------- ------- -------|
B|1-------1-------3-------3------|3-------3-------2-------2------|
G|5-------5-------2-------2------|4-------4-------3-------3------|
D|----------------0---2---4---0--|5-------5-------4-------4------|
A|3---2---3---4------------------|-------------------------------|
E|-------------------------------|3---3-------3---2---2-------2--|
      You made a fool of  evryone                         Sexy Sadie
e|------- ------- ------- -------|------- ------- ------- -------|
B|-------------------------------|-------------------------------|
G|--------5-------7-7-----7------|-------------------------------|
D|----5-------5-/-----7-------7--|--------5---------------4------|
A|3------------------------------|----5-------5-------4-------4--|
E|-------------------------------|3---------------2--------------|



  F               D            
e|------- ------- ------- -------|
B|1-------1-------3-------3------|
G|2-------2-------2-------2------|
D|3-------3-------0-------0------|
A|-------------------------------|
E|1---1-------1---2---2-------2--|
              Ooh   what have you 
e|------- ------- ------- -------|
B|------------------------3------|
G|------------------------5------|
D|--------3-----------4----------|
A|----3-------3---5--------------|
E|1------------------------------|



  G               F#              Bm
e|------- ------- ------- -------|2------ 2------ ----2-- 2---2--|
B|3-------3-------2-------2------|3-------3-----------3---3---3--|
G|4-------4-------3-------3------|4-------4-----------4---4---4--|
D|5-------5-------4-------4------|4-------4-----------4---4---4--|
A|-------------------------------|2-------2-----------2---2---2--|
E|3-----------3---2---2-------2--|-------------------------------|
  done    Sexy Sadie                You broke the rules
e|------- ------- ------- -------|------- ------- ------- -------|
B|-------------------------------|----------------7--------------|
G|-------------------------------|------------7-------7----------|
D|--------5---------------4------|--------9---------------9------|
A|----5-------5-------4-------4-/|----9--------------------------|
E|3---------------2--------------|7---------------------------7--|



  C               D               G               F#
e|0------ 0------ 5-----7 ----8--|10--7-- ------- ------- -------|
B|1-------1-------7-----8----10--|12--8---8----------------------|
G|0-------0-------7---7----------|-0------7---7---6-------6------|
D|----------------0-------0------|------------9---8-------8------|
A|3---2---3---4------------------|----------------9-------9------|
E|-------------------------------|-------------------------------|
     You laid it down for all to see
e|------- ------- ------- -------|------- ------- ------- -------|
B|-------------------------------|-------------------------------|
G|--------5---------------7------|-------------------------------|
D|----5-------5-------7-------7--|--------5---------------4------|
A|3---------------5--------------|----5-------5-------4-------4--|
E|-------------------------------|3---------------2--------------|



  C               D               G               F#
e|0------ 0------ 2------ 2------|------- ------- ------- -------|
B|1-------1-------3-------3------|3-------3-------2-------2------|
G|0-------0-------2-------2------|4-------4-------3-------3------|
D|----0---2-------0---2---4---0--|5-------5-------4-------4------|
A|3-----------3------------------|-------------------------------|
E|-------------------------------|3---3---3---3---2---2---2---2--|
      You laid it down for all to see                     Sexy Sadie
e|------- ------- ------- -------|------- ------- ------- -------|
B|-------------------------------|-------------------------------|
G|--------5---------------7------|-------------------------------|
D|----5-------5-/-----7-------7--|--------5---------------4------|
A|3---------------5--------------|----5-------5-------4-------4--|
E|-------------------------------|3---------------2--------------|



  F               D
e|------- ------- 2------ 2------|
B|1-------1-------3-------3------|
G|2-------2-------2-------2------|
D|3-------3-------0---2---4---0--|
A|--------3----------------------|
E|1---1-------1------------------|
             Ooh you broke the rules
e|------- ------- ------- -------|
B|------------------------3------|
G|------------------------5------|
D|--------3-----------4-------4--|
A|----3-------3---5--------------|
E|1------------------------------|



  G               Am              Bm              C
e|------- ------- ------- -------|------- ------- ------- -------|
B|0-------0-------1-------1------|3-------3-------1-------1------|
G|0-------0-------2-------2------|4-------4-------0-------0------|
D|0-------0-------2-------2------|4-------4-------2-------2------|
A|----------------0---0---0---0--|2---2---2---2---3---3---3---3--|
E|3---3---3---3------------------|-------------------------------|
   One sunny day the world was waiting for a lover
e|------- ------- ------- -------|------- ------- ------- -------|
B|-------------------------------|-------------------------------|
G|-------------------------------|--------------------------9-9-\|
D|----------3---------------7----|----------7--------------------|
A|------3H5-------------5H7------|------7H9-------------8H10-----|
E|3---------------5--------------|7---------------8--------------|



  G               Am              Bm              C
e|------- ------- ------- -------|------- ------- ------- -------|
B|0-------0-------1-------1------|3-------3-------1-------1------|
G|0-------0-------2-------2------|4-------4-------0-------0------|
D|0-------0-------2-------2------|4-------4-------2-------2------|
A|----------------0---0---0---0--|2---2---2---2---3---3---3---3--|
E|3---3---3---3------------------|-------------------------------|
    She came along to turn on everyone                        Sexy
e|------- ------- ------- -------|------- ------- ------- -------|
B|-------------------------------|-------------------------------|
G|-------------------------------|------------------------9------|
D|----------3---------------7----|----------7-----------8--10-8--|
A|------3H5-------------5H7------|------7H9----------------------|
E|3---------------5--------------|7---------------8--------------|



  A               G#              G               F#
e|------- ------- ------- -------|------- ------- ------- -------|
B|2-------2-------4-------4------|3-------3-------2-------2------|
G|2-------2-------5-------5------|4-------4-------3-------3------|
D|2-------2-------6-------6------|5-------5-------4-------4------|
A|0-----------0------------------|-------------------------------|
E|----------------4-----------4--|3-----------3---2-----------2--|   
  Sadie     the greatest of them all      Sexy Sadie
e|------- ------- ------- -------|------- ------- ------- -------|
B|-------------------------------|-------------------------------|
G|-------------------------------|-------------------------------|
D|--------7---------------6------|--------5---------------4------|
A|----7-------7-------6-------6--|----5-------5-------4-------4--|
E|5---------------4--------------|3---------------2--------------|



  Bm
e|2------ 7---7-- 7-7-7-7 7-7-7-7|
B|3------------------------------|
G|4------------------------------|
D|4------------------------------|
A|2------------------------------|
E|-------------------------------|
     How did you know
e|------- ------- ------- -------|
B|----------------7--------------|
G|------------7-------7----------|
D|--------9---------------9------|
A|----9--------------------------|
E|7---------------------------7--|



  C               D               G               F#
e|0------ 0------ 5------ 7---8--|10--7-- ------- ------- -------|
B|1-------1-------7-------8--10--|12--8---8----------------------|
G|0-------0-------7---7----------|-0------7---7---6---6----------|
D|----0---2-------0-------0------|------------9---8---8----------|
A|3-----------3------------------|----------------9---9----------|
E|-------------------------------|-------------------------------|
   The world was waiting just for you
e|------- ------- ------- -------|------- ------- ------- -------|
B|--------5----------------------|-------------------------------|
G|------------------------7------|-------------------------------|
D|----5-------5-/-----7-------7--|--------5---------------4------|
A|3---------------5--------------|----5-------5-------4-------4--|
E|-------------------------------|3---------------2--------------|




  C               D               G               F#
e|3------ 3------ 5------ 5------|------- ------- ------- -------|
B|5-------5-------7-------7------|3-------3-------2-------2------|
G|5-------5-------7-------7------|4-------4-------3-------3------|
D|----------------0---2---4---0--|5-------5-------4-------4------|
A|3---2---3---4------------------|-------------------------------|
E|-------------------------------|3---3---3---3---2---2---2---2--|
   The world was waiting just for you                    Sexy Sadie
e|------- ------- ------- -------|------- ------- ------- -------|
B|-------------------------------|-------------------------------|
G|--------5---------------7------|-------------------------------|
D|----5-------5-------7-------7--|--------5---------------4------|
A|3---------------5--------------|----5-------5-------4-------4--|
E|-------------------------------|3---------------2--------------|



  F               D               G               F#
e|------- ------- ------- -------|------- ------- ------- -------|
B|1-------1-------3-------3------|3-------3-------2-------2------|
G|2-------2-------2-------2------|4-------4-------3-------3------|
D|3-------3-------0-------0------|5-------5-------4-------4------|
A|-------------------------------|-------------------------------|
E|1---1---1---1---2---2---2---2--|3---3---3---3---2---2---2---2--|
             Ooh   how did you know       Sexy Sadie
e|------- ------- ------- -------|------- ------- ------- -------|
B|------------------------3------|-------------------------------|
G|------------------------5------|-------------------------------|
D|--------3-----------4----------|--------5---------------4------|
A|----3-------3---5--------------|----5-------5-------4-------4--|
E|1------------------------------|3---------------2--------------|



  Bm
e|2------ 2------ 2------ 2------|
B|3-------3-------3-------3------|
G|4-------4-------4-------4------|
D|-------------------------------|
A|2-------------------2-2---2-2--|
E|-------------------------------|
    You'll get yours yet
e|------- ------- ------- -------|
B|----------------7--------------|
G|------------7-------7----------|
D|--------9---------------9------|
A|----9--------------------------|
E|7---------------------------7--|


         
  C               D               G               F#
e|0------ 0------ 5------ 7---8--|10--7-- ------- ------- -------|
B|1-------1-------7-------8--10--|12--8---8----------------------|
G|0-------0-------7---7----------|--------7---7---6--------------|
D|--------0---2---0--------------|------------9---8--------------|
A|3---3--------------------------|----------------9--------------|
E|-------------------------------|-------------------------------|
     However big you think you are
e|------- ------- ------- -------|------- ------- ------- -------|
B|--------5----------------------|-------------------------------|
G|----5-------5-----------7------|-------------------------------|
D|--------------------7-------7--|--------5---------------4------|
A|3---------------5--------------|----5-------5-------4-------4--|
E|-------------------------------|3---------------2--------------|



  C               D               G               F#
e|3------ 3------ 5------ 5------|------- ------- ------- -------|
B|5-------5-------7-------7------|3-------3-------2-------2------|
G|5-------5-------7-------7------|4-------4-------3-------3------|
D|----------------0---2---4---0--|5-------5-------4-------4------|
A|3---2---3---4------------------|-------------------------------|
E|-------------------------------|3---3---3---3---2---2---2---2--|
     However big you think you are                        Sexy Sadie
e|------- ------- ------- -------|------- ------- ------- -------|
B|-------------------------------|-------------------------------|
G|--------5-------7-------7------|-------------------------------|
D|----5-------5-------7-------7--|--------5---------------4------|
A|3------------------------------|----5-------5-------4-------4--|
E|-------------------------------|3---------------2--------------|



  F               D
e|------- ------- 2------ 2------|
B|1-------1-------3-------3------|
G|2-------2-------2-------2------|
D|3-------3-------0---0-------0--|
A|------------------------0------|
E|1---1---1---1------------------|
            Ooh you'll get yours yet
e|------- ------- ------- -------|
B|------------------------3------|
G|------------------------5------|
D|--------3-----------4----------|
A|----3-------3---5--------------|
E|1------------------------------|       



  G               Am              Bm              C
e|------- ------- ------- -------|------- ------- ------- -------|
B|3-------3-------1-------1------|3-------3-------5-------5------|
G|4-------4-------2-------2------|4-------4-------5-------5------|
D|5-------5-------2-------2------|4-------4-------5-------5------|
A|----------------0-----------0--|2-----------2---3-----------3--|
E|3-----------3------------------|-------------------------------|
 We gave her everything we owned ............ 
e|------- ------- ------- -------|------- ------- ------- -------|
B|-------------------------------|-------------------------------|
G|-------------------------------|--------------------------9-\--|
D|----------3---------------7----|----------7--------------------|
A|------3H5-------------5H7------|------7H9-------------8H10-----|
E|3---------------5--------------|7---------------8--------------|

e|------- ------- ------- -------|------- ------- ------- -------|
B|3---------------5--------------|7---------------8--------------|
G|4---------------5--------------|7---------------9--------------|
D|5---------------7--------------|9--------------10--------------|
A|-------------------------------|-------------------------------|
E|-------------------------------|-------------------------------|



  G               Am              Bm              C
e|------- ------- ------- -------|------- ------- ------- -------|
B|3-------3-------1-------1------|3-------3-------1-------1------|
G|4-------4-------2-------2------|4-------4-------0-------0------|
D|5-------5-------2-------2------|4-------4-------2-------2------|
A|----------------0-----------0--|2-----------2---3---3---2---2--|
E|3-----------3------------------|-------------------------------|
  Just a smile would lighten everything                   Sexy
e|------- ------- ------- -------|------- ------- ------- -------|
B|-------------------------------|-------------------------------|
G|-------------------------------|-------------------------------|
D|----------3---------------7----|----------7-----------8---8----|
A|------3H5-------------5H7------|------7H9-------------------10-|
E|3---------------5--------------|7---------------8--------------|

e|------- ------- ------- -------|------- ------- ------- -------|
B|3---------------5--------------|7---------------8--------------|
G|4---------------5--------------|7---------------9--------------|
D|5---------------7--------------|9--------------10--------------|
A|-------------------------------|-------------------------------|
E|-------------------------------|-------------------------------|

                                                       

  A               G#              G               F#
e|------- ------- ------- -------|------- ------- ------- -------|
B|2-------2-------4-------4------|3-------3-------2-------2------|
G|2-------2-------5-------5------|4-------4-------3-------3------|
D|2-------2-------6-------6------|5-------5-------4-------4------|
A|0---0---0---0------------------|-------------------------------|
E|----------------4---4-------4--|3---3---3---3---2---2-------2--|   
 Sadie she's the latest and  the greatest of them all 
e|------- ------- ------- -------|------- ------- ------- ----9--|
B|5---------------4--------------|3---------------2----------11--|
G|6---------------5--------------|4---------------3----------11--|
D|7---------------6--------------|5---------------4--------------|
A|-------------------------------|-------------------------------|
E|-------------------------------|-------------------------------|


     

  Bm
e|2------ 2------ 2------ 2------|
B|3-------3-------3-------3------|
G|4-------4-------4-------4------|
D|----------------4-------4------|
A|2-----------2-------2-----2-2--|
E|-------------------------------|
     
e|------- ------- ------- -------|
B|----------------7--------------|
G|------------7-------7----------|
D|--------9---------------9------|
A|----9--------------------------|
E|7---------------------------7--|
          AaaaH....    
e|7------ ------- ------- -------|  
B|7---7--------------------------|
G|7------------------------------|
D|-------------------------------|
A|-------------------------------|
E|7------------------------------|



  C               D               G               F#
e|0------ 0------ 2------ 2------|------- ------- ------- -------|
B|1-------1-------3-------3------|3-------3-------2-------2------|
G|0-------0-------2-------2------|4-------4-------3-------3------|
D|--------0---2---0---0---2---4--|5-------5-------4-------4------|
A|3---3--------------------------|-------------------------------|
E|-------------------------------|3---3---3---3---2---2-------2--|

e|------- ------- ------- -------|------- ------- ------- -------|
B|-------------------------------|-------------------------------|
G|-------------------------------|-------------------------------|
D|----3---5-------4---5---7---7--|9-B-10--9-B-10--8--------------|
A|-------------------------------|-------------------------------|
E|-------------------------------|-------------------------------|

e|12----- ------- 14----- -------|10----- ------- -9----- -------|
B|13--------------15-------------|12--------------11-------------|
G|12--------------14-------------|12--------------11-------------|
D|-------------------------------|-------------------------------|
A|-------------------------------|-------------------------------|
E|-------------------------------|-------------------------------|



  C               D               G               F#
e|0------ 0------ 2------ 2------|------- ------- ------- -------|
B|1-------1-------3-------3------|3-------3-------2-------2------|
G|0-------0-------2-------2------|4-------4-------3-------3------|
D|----------------0---2---4---0--|5-------5-------4-------4------|
A|3---3---3---3------------------|-------------------------------|
E|-------------------------------|3---3-------3---2---2-------2--|
      You made a fool of  evryone
e|------- ------- ------- -------|------- ------- ------- -------|
B|-------------------------------|-------------------------------|
G|-------------------------------|-------------------------------|
D|2---3---5-------4---5---7------|9-B-10--9-B-10--8--------------|
A|-------------------------------|-------------------------------|
E|-------------------------------|-------------------------------|

e|12----- ------- 14----- -------|10----- ------- -9----- -------|
B|13--------------15-------------|12--------------11-------------|
G|12--------------14-------------|12--------------11-------------|
D|-------------------------------|-------------------------------|
A|-------------------------------|-------------------------------|
E|-------------------------------|-------------------------------|     



  F               D
e|------- ------- ------- -------|
B|1-------1-------3-------3------|
G|2-------2-------2-------2------|
D|3-------3-------0-------0------|
A|-------------------------------|
E|1---1-------1---2---2-------2--|
           
e|------- ------- ------- -------|
B|------------------------3------|
G|------------------------5------|
D|--------3-----------4----------|
A|----3-------3---5--------------|
E|1------------------------------| 

e|------- ------- ------- -------|
B|-------------------------------|
G|-------------------------------|
D|7-B-9---7-B-9------------------|
A|----------------5--------------|
E|-------------------------------| 


    
  G               F#              Bm
e|------- ------- ------- -------|2------ 2------ 2------ 2------|
B|3-------3-------2-------2------|3-------3-------3-------3------|
G|4-------4-------3-------3------|4-------4-------4-------4------|
D|5-------5-------4-------4------|-------------------------------|
A|-------------------------------|2-----------2-------2---2---2--|
E|3---3-------3---2---2-------2--|-------------------------------|
  
e|------- ------- ------- -------|------- ------- ------- -------|
B|-------------------------------|----------------7--------------|
G|-------------------------------|------------7-------7----------|
D|--------5---------------4------|--------9---------------9------|
A|----5-------5-------4-------4--|----9--------------------------|
E|3---------------2--------------|7---------------------------7--|

e|------- ------- ------- -------|------- ------- ------- -------|
B|-------------------------------|-------------------------------|
G|-------------------------------|----7-9-9B11----9B11R9---------|
D|9-B-10--9-B-10--11-------------|9-----------------------9------|
A|------------------------9------|-------------------------------|     
E|-------------------------------|-------------------------------|     
                   


  C               D               G               F#
e|0------ 0------ 2------ 2------|------- ------- ------- -------|
B|1-------1-------3-------3------|3-------3-------2-------2------|
G|0-------0-------2-------2------|4-------4-------3-------3------|
D|----0---2-------0---2---4---0--|5-------5-------4-------4------|
A|3-----------3------------------|-------------------------------|
E|-------------------------------|3---3---3---3---2---2---2---2--|

e|------- ------- ------- -------|------- ------- ------- -------|
B|-------------------------------|-------------------------------|
G|-------------------------------|-------------------------------|
D|2---3---5-------4---5---7------|9-B-10--9-B-10--8--------------|
A|-------------------------------|-------------------------------|
E|-------------------------------|-------------------------------|  

e|------- ------- ------- -------|------- ------- ----9-- -------|
B|-------------------------------|-------------------11----------|
G|-------------------------------|-------------------11----------|
D|-------------------------------|-------------------------------|
A|-------------------------------|-------------------------------|
E|-------------------------------|-------------------------------|




  C               D               G               F#
e|0------ 0------ 2------ 2------|------- ------- ------- -------|
B|1-------1-------3-------3------|3-------3-------2-------2------|
G|0-------0-------2-------2------|4-------4-------3-------3------|
D|----------------0---2---4---0--|5-------5-------4-------4------|
A|3---2---3---4------------------|-------------------------------|
E|-------------------------------|3---3-----3-----2---2-------2--|
     However big you think you are
e|------- ------- ------- -------|------- ------- ------- -------|
B|-------------------------------|-------------------------------|
G|-------------------------------|-------------------------------|
D|2---3---5-------4---5---7------|9-B-10--9-B-10--8--------------|
A|-------------------------------|-------------------------------|
E|-------------------------------|-------------------------------|

e|12----- ------- 14----- -------|10----- ------- -9----- -------|
B|13--------------15-------------|12--------------11-------------|
G|12--------------14-------------|12--------------11-------------|
D|-------------------------------|-------------------------------|
A|-------------------------------|-------------------------------|
E|-------------------------------|-------------------------------|




  F               D
e|------- ------- 2------ 2------|
B|1-------1-------3-------3------|
G|2-------2-------2-------2------|
D|3-------3-------0---0----------|
A|------------------------0---0--|
E|1---1---1---1------------------|
           
e|------- ------- ------- -------|
B|------------------------3------|
G|------------------------5------|
D|--------------------4----------|
A|----------------5--------------|
E|-------------------------------| 

e|------- ------- ------- -------|
B|-------------------------------|
G|-------------------------------|
D|7-B-9---7-B-9------------------|
A|----------------5--------------|
E|-------------------------------| 


   
  G               F#              Bm
e|------- ------- ------- -------|2------ 2------ ----2-- 2---2--|
B|3-------3-------2-------2------|3-------3-----------3---3---3--|
G|4-------4-------3-------3------|4-------4-----------4---4---4--|
D|5-------5-------4-------4------|-------------------------------|
A|-------------------------------|2-------2-----------2---2------|
E|3---3---3---3---2---2---2---2--|----------------------------2--|
  
e|------- ------- ------- -------|------- ------- ------- -------|
B|-------------------------------|----------------7--------------|
G|--------4---------------3------|------------7-------7----------|
D|----5-------5-------4-------4-/|--------9---------------9------|
A|5---------------4--------------|----9--------------------------|
E|-------------------------------|7---------------------------7--|

e|------- ------- ------- -------|------- ------- ------- -------|
B|-------------------------------|-------------------------------|
G|-------------------------------|----7-9-9B11----9B11R9---------|
D|9-B-10--9-B-10--11-------------|9-----------------------9------|
A|-------------------------------|-------------------------------|
E|-------------------------------|-------------------------------|   

e|--10--- 10----- ------- -------|------- ------- ------- -------|
B|--12----12--------------12--12\|-------------------------------|
G|-------------------------------|-------------------------------|
D|-------------------------------|-------------------------------|
A|-------------------------------|-------------------------------|
E|-------------------------------|-------------------------------|




  C               D               G               F#
e|0------ 0------ 2------ 2------|------- ------- ------- -------|
B|1-------1-------3-------3------|3-------3-------2-------2------|
G|0-------0-------2-------2------|4-------4-------3-------3------|
D|----0---2-------0---2---4---0--|5---5---5-------4-------4------|
A|3-----------3------------------|-------------------------------|
E|-------------------------------|3---3---3---3---2---2---2---2--|
  ..............................Fade.............................
e|------- ------- ------- -------|------- ------- ------- -------|
B|-------------------------------|-------------------------------|
G|-------------------------------|-------------------------------|
D|2---3---5-------4---5---7------|9-B-10--9-B-10--8--------------|
A|-------------------------------|-------------------------------|
E|-------------------------------|-------------------------------|

e|------- ------- ------- -------|------- ------- ------- -------|
B|------------8-/-10--10---------|----------------3--------------|
G|-------------------------------|----------------3--------------|
D|-------------------------------|-------------------------------|
A|-------------------------------|-------------------------------|
E|-------------------------------|-------------------------------|




  C               D               G               F#
e|3------ 3------ 5------ 5------|------- ------- ------- -------|
B|5-------5-------7-------7------|3-------3-------2-------2------|
G|5-------5-------7-------7------|4-------4-------3-------3------|
D|----------------0---0---0---0--|5-------5-------4-------4------|
A|3---3---3---3------------------|-------------------------------|
E|-------------------------------|3---3---3---3---2---2---2---2--|
  ...............................................................
e|------- ------- ------- -------|------- ------- ------- -------|
B|-------------------------------|-------------------------------|
G|-------------------------------|-------------------------------|
D|2---3---5-------4---5---7------|9-B-10--9-B-10--8--------------|
A|-------------------------------|-------------------------------|
E|-------------------------------|-------------------------------|


        B  Bend
        R  Release
        /  slide up
        \  slide down
        H  hammer-on
        P  pull-off
        ~  vibrato
        +  harmonic
        x  Mute note
        . - play note like a dot in standard notation
        ^ - ties two notes together




Ook op The Beatles [White Album]:

ChordsNotes On
Back in the U.S.S.R. Back in the U.S.S.R.
Dear Prudence Dear Prudence
Glass Onion Glass Onion
Ob-La-Di, Ob-La-Da Ob-La-Di, Ob-La-Da
Wild Honey Pie Wild Honey Pie
The Continuing Story of Bungalow Bill The Continuing Story of Bungalow Bill
While My Guitar Gently Weeps While My Guitar Gently Weeps
Happiness Is a Warm Gun Happiness Is a Warm Gun
Martha My Dear Martha My Dear
I'm So Tired I'm So Tired
Blackbird Blackbird
Piggies Piggies
Rocky Raccoon Rocky Raccoon
Don't Pass Me By Don't Pass Me By
Why Don't We Do It in the Road Why Don't We Do It in the Road
I Will I Will
Julia Julia
Birthday Birthday
Yer Blues Yer Blues
Mother Nature's Son Mother Nature's Son
Everybody's Got Something to Hide Except Me and My Monkey Everybody's Got Something to Hide Except Me and My Monkey
Sexy Sadie Sexy Sadie
Helter Skelter Helter Skelter
Long, Long, Long Long, Long, Long
Revolution 1 Revolution 1
Honey Pie Honey Pie
Savoy Truffle Savoy Truffle
Cry Baby Cry Cry Baby Cry
Can You Take Me Back Can You Take Me Back
Revolution 9 Revolution 9
Good Night Good Night

Ook op Anthology 3:

ChordsNotes On
A Beginning 
Happiness Is A Warm Gun (Kinfauns Home Demo)
Helter Skelter (Edited Take 2)
Mean Mr. Mustard (Kinfauns Home Demo)
Polythene Pam (Kinfauns Home Demo)
Glass Onion (Kinfauns Home Demo)
Junk (Kinfauns Home Demo)
Piggies (Kinfauns Home Demo)
Honey Pie (Kinfauns Home Demo)
Don't Pass Me By (Takes 3 & 5)
Ob-La-Di, Ob-La-Da Ob-La-Di, Ob-La-Da
Good Night (Rehearsal & Take 34)
Cry Baby Cry (Take 1)
Blackbird (take 4)
Sexy Sadie (Take 6)
While My Guitar Gently Weeps (Demo)
Hey Jude Hey Jude
Not Guilty (Take 102)
Mother Nature's Son (Take 2)
Glass Onion Glass Onion
Rocky Raccoon (Take 8)
What's The New Mary Jane (Take 4)
Step Inside Love / Los Paranoias 
I'm So Tired (Takes 3, 6 & 9)
I Will (Take 1)
Why Don't We Do It In The Road (Take 4)
Julia (Take 2)
I've Got A Feeling (Savile Row)
She Came In Through The Bathroom Window (Rehearsal) (Savile Row)
Dig A Pony (Savile Row)
Two Of Us (Savile Row)
For You Blue (Savile Row)
Teddy Boy (Savile Row)
Medley: Rip It Up / Shake, Rattle And Roll / Blue Suede Shoes (perkins) (savile Row) 
The Long And Winding Road (Savile Row)
Oh! Darling (Savile Row)
All Things Must Pass (Demo)
Mailman, Bring Me No More Blues (Savile Row)
Get Back (Live at the Rooftop Concert)
Old Brown Shoe (Demo)
Octopus's Garden (Takes 2 & 8)
Maxwell's Silver Hammer (Take 5)
Something (Demo)
Come Together (Take 1)
Come And Get It (Demo)
Ain't She Sweet (Jam)
Because Because
Let It Be (Savile Row)
I Me Mine (Take 16)
The End (Remix)

(c) 2019 Serge Girard